ISO-10303-21;
HEADER;
/* Generated by software containing ST-Developer
 * from STEP Tools, Inc. (www.steptools.com) 
 */

FILE_DESCRIPTION(
/* description */ (''),
/* implementation_level */ '2;1');

FILE_NAME(
/* name */ 
'Z:/Modular Solution/A-Profile System/Parts/61-120-0/CAD/61-120-0 v2.s
tep',
/* time_stamp */ '2020-10-02T13:31:19-04:00',
/* author */ (''),
/* organization */ (''),
/* preprocessor_version */ 'ST-DEVELOPER v18.1',
/* originating_system */ 'Autodesk Translation Framework v9.3.0.1241',
/* authorisation */ '');

FILE_SCHEMA (('AUTOMOTIVE_DESIGN { 1 0 10303 214 3 1 1 }'));
ENDSEC;

DATA;
#10=MECHANICAL_DESIGN_GEOMETRIC_PRESENTATION_REPRESENTATION('',(#13),#527);
#11=SHAPE_REPRESENTATION_RELATIONSHIP('SRR','None',#534,#12);
#12=ADVANCED_BREP_SHAPE_REPRESENTATION('',(#14),#526);
#13=STYLED_ITEM('',(#543),#14);
#14=MANIFOLD_SOLID_BREP('Body1',#303);
#15=PLANE('',#320);
#16=PLANE('',#324);
#17=PLANE('',#328);
#18=PLANE('',#332);
#19=PLANE('',#336);
#20=PLANE('',#340);
#21=PLANE('',#344);
#22=PLANE('',#345);
#23=PLANE('',#346);
#24=FACE_OUTER_BOUND('',#40,.T.);
#25=FACE_OUTER_BOUND('',#41,.T.);
#26=FACE_OUTER_BOUND('',#42,.T.);
#27=FACE_OUTER_BOUND('',#43,.T.);
#28=FACE_OUTER_BOUND('',#44,.T.);
#29=FACE_OUTER_BOUND('',#45,.T.);
#30=FACE_OUTER_BOUND('',#46,.T.);
#31=FACE_OUTER_BOUND('',#47,.T.);
#32=FACE_OUTER_BOUND('',#48,.T.);
#33=FACE_OUTER_BOUND('',#49,.T.);
#34=FACE_OUTER_BOUND('',#50,.T.);
#35=FACE_OUTER_BOUND('',#51,.T.);
#36=FACE_OUTER_BOUND('',#52,.T.);
#37=FACE_OUTER_BOUND('',#53,.T.);
#38=FACE_OUTER_BOUND('',#54,.T.);
#39=FACE_OUTER_BOUND('',#55,.T.);
#40=EDGE_LOOP('',(#196,#197,#198,#199));
#41=EDGE_LOOP('',(#200,#201,#202,#203));
#42=EDGE_LOOP('',(#204,#205,#206,#207));
#43=EDGE_LOOP('',(#208,#209,#210,#211));
#44=EDGE_LOOP('',(#212,#213,#214,#215));
#45=EDGE_LOOP('',(#216,#217,#218,#219));
#46=EDGE_LOOP('',(#220,#221,#222,#223));
#47=EDGE_LOOP('',(#224,#225,#226,#227));
#48=EDGE_LOOP('',(#228,#229,#230,#231));
#49=EDGE_LOOP('',(#232,#233,#234,#235));
#50=EDGE_LOOP('',(#236,#237,#238,#239));
#51=EDGE_LOOP('',(#240,#241,#242,#243));
#52=EDGE_LOOP('',(#244,#245,#246,#247));
#53=EDGE_LOOP('',(#248,#249,#250,#251));
#54=EDGE_LOOP('',(#252,#253,#254,#255,#256,#257,#258,#259,#260,#261,#262,
#263,#264,#265));
#55=EDGE_LOOP('',(#266,#267,#268,#269,#270,#271,#272,#273,#274,#275,#276,
#277,#278,#279));
#56=LINE('',#443,#84);
#57=LINE('',#446,#85);
#58=LINE('',#449,#86);
#59=LINE('',#451,#87);
#60=LINE('',#452,#88);
#61=LINE('',#458,#89);
#62=LINE('',#461,#90);
#63=LINE('',#463,#91);
#64=LINE('',#464,#92);
#65=LINE('',#470,#93);
#66=LINE('',#473,#94);
#67=LINE('',#475,#95);
#68=LINE('',#476,#96);
#69=LINE('',#482,#97);
#70=LINE('',#485,#98);
#71=LINE('',#487,#99);
#72=LINE('',#488,#100);
#73=LINE('',#494,#101);
#74=LINE('',#497,#102);
#75=LINE('',#499,#103);
#76=LINE('',#500,#104);
#77=LINE('',#506,#105);
#78=LINE('',#509,#106);
#79=LINE('',#511,#107);
#80=LINE('',#512,#108);
#81=LINE('',#518,#109);
#82=LINE('',#520,#110);
#83=LINE('',#521,#111);
#84=VECTOR('',#353,10.);
#85=VECTOR('',#356,10.);
#86=VECTOR('',#359,10.);
#87=VECTOR('',#360,10.);
#88=VECTOR('',#361,10.);
#89=VECTOR('',#368,10.);
#90=VECTOR('',#371,10.);
#91=VECTOR('',#372,10.);
#92=VECTOR('',#373,10.);
#93=VECTOR('',#380,10.);
#94=VECTOR('',#383,10.);
#95=VECTOR('',#384,10.);
#96=VECTOR('',#385,10.);
#97=VECTOR('',#392,10.);
#98=VECTOR('',#395,10.);
#99=VECTOR('',#396,10.);
#100=VECTOR('',#397,10.);
#101=VECTOR('',#404,10.);
#102=VECTOR('',#407,10.);
#103=VECTOR('',#408,10.);
#104=VECTOR('',#409,10.);
#105=VECTOR('',#416,10.);
#106=VECTOR('',#419,10.);
#107=VECTOR('',#420,10.);
#108=VECTOR('',#421,10.);
#109=VECTOR('',#428,10.);
#110=VECTOR('',#431,10.);
#111=VECTOR('',#432,10.);
#112=CIRCLE('',#318,0.499999663500055);
#113=CIRCLE('',#319,0.499999663500055);
#114=CIRCLE('',#322,0.499999663499994);
#115=CIRCLE('',#323,0.499999663499994);
#116=CIRCLE('',#326,1.49999998670001);
#117=CIRCLE('',#327,1.49999998670001);
#118=CIRCLE('',#330,0.300000186199994);
#119=CIRCLE('',#331,0.300000186199994);
#120=CIRCLE('',#334,0.499999683799989);
#121=CIRCLE('',#335,0.499999683799989);
#122=CIRCLE('',#338,1.2999995538);
#123=CIRCLE('',#339,1.2999995538);
#124=CIRCLE('',#342,0.500000000000007);
#125=CIRCLE('',#343,0.500000000000007);
#126=VERTEX_POINT('',#439);
#127=VERTEX_POINT('',#440);
#128=VERTEX_POINT('',#442);
#129=VERTEX_POINT('',#444);
#130=VERTEX_POINT('',#448);
#131=VERTEX_POINT('',#450);
#132=VERTEX_POINT('',#454);
#133=VERTEX_POINT('',#456);
#134=VERTEX_POINT('',#460);
#135=VERTEX_POINT('',#462);
#136=VERTEX_POINT('',#466);
#137=VERTEX_POINT('',#468);
#138=VERTEX_POINT('',#472);
#139=VERTEX_POINT('',#474);
#140=VERTEX_POINT('',#478);
#141=VERTEX_POINT('',#480);
#142=VERTEX_POINT('',#484);
#143=VERTEX_POINT('',#486);
#144=VERTEX_POINT('',#490);
#145=VERTEX_POINT('',#492);
#146=VERTEX_POINT('',#496);
#147=VERTEX_POINT('',#498);
#148=VERTEX_POINT('',#502);
#149=VERTEX_POINT('',#504);
#150=VERTEX_POINT('',#508);
#151=VERTEX_POINT('',#510);
#152=VERTEX_POINT('',#514);
#153=VERTEX_POINT('',#516);
#154=EDGE_CURVE('',#126,#127,#112,.T.);
#155=EDGE_CURVE('',#126,#128,#56,.T.);
#156=EDGE_CURVE('',#129,#128,#113,.T.);
#157=EDGE_CURVE('',#127,#129,#57,.T.);
#158=EDGE_CURVE('',#130,#127,#58,.T.);
#159=EDGE_CURVE('',#131,#129,#59,.T.);
#160=EDGE_CURVE('',#130,#131,#60,.T.);
#161=EDGE_CURVE('',#132,#130,#114,.T.);
#162=EDGE_CURVE('',#133,#131,#115,.T.);
#163=EDGE_CURVE('',#132,#133,#61,.T.);
#164=EDGE_CURVE('',#134,#132,#62,.T.);
#165=EDGE_CURVE('',#135,#133,#63,.T.);
#166=EDGE_CURVE('',#134,#135,#64,.T.);
#167=EDGE_CURVE('',#136,#134,#116,.T.);
#168=EDGE_CURVE('',#137,#135,#117,.T.);
#169=EDGE_CURVE('',#136,#137,#65,.T.);
#170=EDGE_CURVE('',#138,#136,#66,.T.);
#171=EDGE_CURVE('',#139,#137,#67,.T.);
#172=EDGE_CURVE('',#138,#139,#68,.T.);
#173=EDGE_CURVE('',#138,#140,#118,.T.);
#174=EDGE_CURVE('',#141,#139,#119,.T.);
#175=EDGE_CURVE('',#140,#141,#69,.T.);
#176=EDGE_CURVE('',#142,#140,#70,.T.);
#177=EDGE_CURVE('',#143,#141,#71,.T.);
#178=EDGE_CURVE('',#142,#143,#72,.T.);
#179=EDGE_CURVE('',#144,#142,#120,.T.);
#180=EDGE_CURVE('',#145,#143,#121,.T.);
#181=EDGE_CURVE('',#144,#145,#73,.T.);
#182=EDGE_CURVE('',#146,#144,#74,.T.);
#183=EDGE_CURVE('',#147,#145,#75,.T.);
#184=EDGE_CURVE('',#146,#147,#76,.T.);
#185=EDGE_CURVE('',#148,#146,#122,.T.);
#186=EDGE_CURVE('',#149,#147,#123,.T.);
#187=EDGE_CURVE('',#148,#149,#77,.T.);
#188=EDGE_CURVE('',#150,#148,#78,.T.);
#189=EDGE_CURVE('',#151,#149,#79,.T.);
#190=EDGE_CURVE('',#150,#151,#80,.T.);
#191=EDGE_CURVE('',#152,#150,#124,.T.);
#192=EDGE_CURVE('',#153,#151,#125,.T.);
#193=EDGE_CURVE('',#152,#153,#81,.T.);
#194=EDGE_CURVE('',#126,#152,#82,.T.);
#195=EDGE_CURVE('',#128,#153,#83,.T.);
#196=ORIENTED_EDGE('',*,*,#154,.F.);
#197=ORIENTED_EDGE('',*,*,#155,.T.);
#198=ORIENTED_EDGE('',*,*,#156,.F.);
#199=ORIENTED_EDGE('',*,*,#157,.F.);
#200=ORIENTED_EDGE('',*,*,#158,.T.);
#201=ORIENTED_EDGE('',*,*,#157,.T.);
#202=ORIENTED_EDGE('',*,*,#159,.F.);
#203=ORIENTED_EDGE('',*,*,#160,.F.);
#204=ORIENTED_EDGE('',*,*,#161,.T.);
#205=ORIENTED_EDGE('',*,*,#160,.T.);
#206=ORIENTED_EDGE('',*,*,#162,.F.);
#207=ORIENTED_EDGE('',*,*,#163,.F.);
#208=ORIENTED_EDGE('',*,*,#164,.T.);
#209=ORIENTED_EDGE('',*,*,#163,.T.);
#210=ORIENTED_EDGE('',*,*,#165,.F.);
#211=ORIENTED_EDGE('',*,*,#166,.F.);
#212=ORIENTED_EDGE('',*,*,#167,.T.);
#213=ORIENTED_EDGE('',*,*,#166,.T.);
#214=ORIENTED_EDGE('',*,*,#168,.F.);
#215=ORIENTED_EDGE('',*,*,#169,.F.);
#216=ORIENTED_EDGE('',*,*,#170,.T.);
#217=ORIENTED_EDGE('',*,*,#169,.T.);
#218=ORIENTED_EDGE('',*,*,#171,.F.);
#219=ORIENTED_EDGE('',*,*,#172,.F.);
#220=ORIENTED_EDGE('',*,*,#173,.F.);
#221=ORIENTED_EDGE('',*,*,#172,.T.);
#222=ORIENTED_EDGE('',*,*,#174,.F.);
#223=ORIENTED_EDGE('',*,*,#175,.F.);
#224=ORIENTED_EDGE('',*,*,#176,.T.);
#225=ORIENTED_EDGE('',*,*,#175,.T.);
#226=ORIENTED_EDGE('',*,*,#177,.F.);
#227=ORIENTED_EDGE('',*,*,#178,.F.);
#228=ORIENTED_EDGE('',*,*,#179,.T.);
#229=ORIENTED_EDGE('',*,*,#178,.T.);
#230=ORIENTED_EDGE('',*,*,#180,.F.);
#231=ORIENTED_EDGE('',*,*,#181,.F.);
#232=ORIENTED_EDGE('',*,*,#182,.T.);
#233=ORIENTED_EDGE('',*,*,#181,.T.);
#234=ORIENTED_EDGE('',*,*,#183,.F.);
#235=ORIENTED_EDGE('',*,*,#184,.F.);
#236=ORIENTED_EDGE('',*,*,#185,.T.);
#237=ORIENTED_EDGE('',*,*,#184,.T.);
#238=ORIENTED_EDGE('',*,*,#186,.F.);
#239=ORIENTED_EDGE('',*,*,#187,.F.);
#240=ORIENTED_EDGE('',*,*,#188,.T.);
#241=ORIENTED_EDGE('',*,*,#187,.T.);
#242=ORIENTED_EDGE('',*,*,#189,.F.);
#243=ORIENTED_EDGE('',*,*,#190,.F.);
#244=ORIENTED_EDGE('',*,*,#191,.T.);
#245=ORIENTED_EDGE('',*,*,#190,.T.);
#246=ORIENTED_EDGE('',*,*,#192,.F.);
#247=ORIENTED_EDGE('',*,*,#193,.F.);
#248=ORIENTED_EDGE('',*,*,#194,.T.);
#249=ORIENTED_EDGE('',*,*,#193,.T.);
#250=ORIENTED_EDGE('',*,*,#195,.F.);
#251=ORIENTED_EDGE('',*,*,#155,.F.);
#252=ORIENTED_EDGE('',*,*,#195,.T.);
#253=ORIENTED_EDGE('',*,*,#192,.T.);
#254=ORIENTED_EDGE('',*,*,#189,.T.);
#255=ORIENTED_EDGE('',*,*,#186,.T.);
#256=ORIENTED_EDGE('',*,*,#183,.T.);
#257=ORIENTED_EDGE('',*,*,#180,.T.);
#258=ORIENTED_EDGE('',*,*,#177,.T.);
#259=ORIENTED_EDGE('',*,*,#174,.T.);
#260=ORIENTED_EDGE('',*,*,#171,.T.);
#261=ORIENTED_EDGE('',*,*,#168,.T.);
#262=ORIENTED_EDGE('',*,*,#165,.T.);
#263=ORIENTED_EDGE('',*,*,#162,.T.);
#264=ORIENTED_EDGE('',*,*,#159,.T.);
#265=ORIENTED_EDGE('',*,*,#156,.T.);
#266=ORIENTED_EDGE('',*,*,#194,.F.);
#267=ORIENTED_EDGE('',*,*,#154,.T.);
#268=ORIENTED_EDGE('',*,*,#158,.F.);
#269=ORIENTED_EDGE('',*,*,#161,.F.);
#270=ORIENTED_EDGE('',*,*,#164,.F.);
#271=ORIENTED_EDGE('',*,*,#167,.F.);
#272=ORIENTED_EDGE('',*,*,#170,.F.);
#273=ORIENTED_EDGE('',*,*,#173,.T.);
#274=ORIENTED_EDGE('',*,*,#176,.F.);
#275=ORIENTED_EDGE('',*,*,#179,.F.);
#276=ORIENTED_EDGE('',*,*,#182,.F.);
#277=ORIENTED_EDGE('',*,*,#185,.F.);
#278=ORIENTED_EDGE('',*,*,#188,.F.);
#279=ORIENTED_EDGE('',*,*,#191,.F.);
#280=CYLINDRICAL_SURFACE('',#317,0.499999663500055);
#281=CYLINDRICAL_SURFACE('',#321,0.499999663499994);
#282=CYLINDRICAL_SURFACE('',#325,1.49999998670001);
#283=CYLINDRICAL_SURFACE('',#329,0.300000186199994);
#284=CYLINDRICAL_SURFACE('',#333,0.499999683799989);
#285=CYLINDRICAL_SURFACE('',#337,1.2999995538);
#286=CYLINDRICAL_SURFACE('',#341,0.500000000000007);
#287=ADVANCED_FACE('',(#24),#280,.F.);
#288=ADVANCED_FACE('',(#25),#15,.T.);
#289=ADVANCED_FACE('',(#26),#281,.T.);
#290=ADVANCED_FACE('',(#27),#16,.T.);
#291=ADVANCED_FACE('',(#28),#282,.T.);
#292=ADVANCED_FACE('',(#29),#17,.T.);
#293=ADVANCED_FACE('',(#30),#283,.F.);
#294=ADVANCED_FACE('',(#31),#18,.T.);
#295=ADVANCED_FACE('',(#32),#284,.T.);
#296=ADVANCED_FACE('',(#33),#19,.T.);
#297=ADVANCED_FACE('',(#34),#285,.T.);
#298=ADVANCED_FACE('',(#35),#20,.T.);
#299=ADVANCED_FACE('',(#36),#286,.T.);
#300=ADVANCED_FACE('',(#37),#21,.T.);
#301=ADVANCED_FACE('',(#38),#22,.T.);
#302=ADVANCED_FACE('',(#39),#23,.F.);
#303=CLOSED_SHELL('',(#287,#288,#289,#290,#291,#292,#293,#294,#295,#296,
#297,#298,#299,#300,#301,#302));
#304=DERIVED_UNIT_ELEMENT(#306,1.);
#305=DERIVED_UNIT_ELEMENT(#529,3.);
#306=(
MASS_UNIT()
NAMED_UNIT(*)
SI_UNIT(.KILO.,.GRAM.)
);
#307=DERIVED_UNIT((#304,#305));
#308=MEASURE_REPRESENTATION_ITEM('density measure',
POSITIVE_RATIO_MEASURE(7850.),#307);
#309=PROPERTY_DEFINITION_REPRESENTATION(#314,#311);
#310=PROPERTY_DEFINITION_REPRESENTATION(#315,#312);
#311=REPRESENTATION('material name',(#313),#526);
#312=REPRESENTATION('density',(#308),#526);
#313=DESCRIPTIVE_REPRESENTATION_ITEM('Steel','Steel');
#314=PROPERTY_DEFINITION('material property','material name',#536);
#315=PROPERTY_DEFINITION('material property','density of part',#536);
#316=AXIS2_PLACEMENT_3D('placement',#437,#347,#348);
#317=AXIS2_PLACEMENT_3D('',#438,#349,#350);
#318=AXIS2_PLACEMENT_3D('',#441,#351,#352);
#319=AXIS2_PLACEMENT_3D('',#445,#354,#355);
#320=AXIS2_PLACEMENT_3D('',#447,#357,#358);
#321=AXIS2_PLACEMENT_3D('',#453,#362,#363);
#322=AXIS2_PLACEMENT_3D('',#455,#364,#365);
#323=AXIS2_PLACEMENT_3D('',#457,#366,#367);
#324=AXIS2_PLACEMENT_3D('',#459,#369,#370);
#325=AXIS2_PLACEMENT_3D('',#465,#374,#375);
#326=AXIS2_PLACEMENT_3D('',#467,#376,#377);
#327=AXIS2_PLACEMENT_3D('',#469,#378,#379);
#328=AXIS2_PLACEMENT_3D('',#471,#381,#382);
#329=AXIS2_PLACEMENT_3D('',#477,#386,#387);
#330=AXIS2_PLACEMENT_3D('',#479,#388,#389);
#331=AXIS2_PLACEMENT_3D('',#481,#390,#391);
#332=AXIS2_PLACEMENT_3D('',#483,#393,#394);
#333=AXIS2_PLACEMENT_3D('',#489,#398,#399);
#334=AXIS2_PLACEMENT_3D('',#491,#400,#401);
#335=AXIS2_PLACEMENT_3D('',#493,#402,#403);
#336=AXIS2_PLACEMENT_3D('',#495,#405,#406);
#337=AXIS2_PLACEMENT_3D('',#501,#410,#411);
#338=AXIS2_PLACEMENT_3D('',#503,#412,#413);
#339=AXIS2_PLACEMENT_3D('',#505,#414,#415);
#340=AXIS2_PLACEMENT_3D('',#507,#417,#418);
#341=AXIS2_PLACEMENT_3D('',#513,#422,#423);
#342=AXIS2_PLACEMENT_3D('',#515,#424,#425);
#343=AXIS2_PLACEMENT_3D('',#517,#426,#427);
#344=AXIS2_PLACEMENT_3D('',#519,#429,#430);
#345=AXIS2_PLACEMENT_3D('',#522,#433,#434);
#346=AXIS2_PLACEMENT_3D('',#523,#435,#436);
#347=DIRECTION('axis',(0.,0.,1.));
#348=DIRECTION('refdir',(1.,0.,0.));
#349=DIRECTION('center_axis',(0.,0.,1.));
#350=DIRECTION('ref_axis',(-7.10543213955605E-14,1.,0.));
#351=DIRECTION('center_axis',(0.,0.,1.));
#352=DIRECTION('ref_axis',(-7.10543213955605E-14,1.,0.));
#353=DIRECTION('',(0.,0.,1.));
#354=DIRECTION('center_axis',(0.,0.,-1.));
#355=DIRECTION('ref_axis',(-7.10543213955605E-14,1.,0.));
#356=DIRECTION('',(0.,0.,1.));
#357=DIRECTION('center_axis',(0.996194719562048,0.0871554973406297,0.));
#358=DIRECTION('ref_axis',(-0.0871554973406297,0.996194719562048,0.));
#359=DIRECTION('',(-0.0871554973406297,0.996194719562048,0.));
#360=DIRECTION('',(-0.0871554973406297,0.996194719562048,0.));
#361=DIRECTION('',(0.,0.,1.));
#362=DIRECTION('center_axis',(0.,0.,1.));
#363=DIRECTION('ref_axis',(-0.996194702054805,-0.0871556974496665,0.));
#364=DIRECTION('center_axis',(0.,0.,1.));
#365=DIRECTION('ref_axis',(-0.996194702054805,-0.0871556974496665,0.));
#366=DIRECTION('center_axis',(0.,0.,1.));
#367=DIRECTION('ref_axis',(-0.996194702054805,-0.0871556974496665,0.));
#368=DIRECTION('',(0.,0.,1.));
#369=DIRECTION('center_axis',(-0.996194697855943,-0.087155745442898,0.));
#370=DIRECTION('ref_axis',(0.087155745442898,-0.996194697855943,0.));
#371=DIRECTION('',(0.087155745442898,-0.996194697855943,0.));
#372=DIRECTION('',(0.087155745442898,-0.996194697855943,0.));
#373=DIRECTION('',(0.,0.,1.));
#374=DIRECTION('center_axis',(0.,0.,1.));
#375=DIRECTION('ref_axis',(0.,1.,0.));
#376=DIRECTION('center_axis',(0.,0.,1.));
#377=DIRECTION('ref_axis',(0.,1.,0.));
#378=DIRECTION('center_axis',(0.,0.,1.));
#379=DIRECTION('ref_axis',(0.,1.,0.));
#380=DIRECTION('',(0.,0.,1.));
#381=DIRECTION('center_axis',(-8.06290924038925E-6,0.999999999967495,0.));
#382=DIRECTION('ref_axis',(-0.999999999967495,-8.06290924038925E-6,0.));
#383=DIRECTION('',(-0.999999999967495,-8.06290924038925E-6,0.));
#384=DIRECTION('',(-0.999999999967495,-8.06290924038925E-6,0.));
#385=DIRECTION('',(0.,0.,1.));
#386=DIRECTION('center_axis',(0.,0.,1.));
#387=DIRECTION('ref_axis',(0.0257413308116176,-0.999668637043319,0.));
#388=DIRECTION('center_axis',(0.,0.,1.));
#389=DIRECTION('ref_axis',(0.0257413308116176,-0.999668637043319,0.));
#390=DIRECTION('center_axis',(0.,0.,-1.));
#391=DIRECTION('ref_axis',(0.0257413308116176,-0.999668637043319,0.));
#392=DIRECTION('',(0.,0.,1.));
#393=DIRECTION('center_axis',(-0.317717847335465,-0.948185303347673,0.));
#394=DIRECTION('ref_axis',(0.948185303347673,-0.317717847335465,0.));
#395=DIRECTION('',(0.948185303347673,-0.317717847335465,0.));
#396=DIRECTION('',(0.948185303347673,-0.317717847335465,0.));
#397=DIRECTION('',(0.,0.,1.));
#398=DIRECTION('center_axis',(0.,0.,1.));
#399=DIRECTION('ref_axis',(0.317717832715493,0.948185308246532,0.));
#400=DIRECTION('center_axis',(0.,0.,1.));
#401=DIRECTION('ref_axis',(0.317717832715493,0.948185308246532,0.));
#402=DIRECTION('center_axis',(0.,0.,1.));
#403=DIRECTION('ref_axis',(0.317717832715493,0.948185308246532,0.));
#404=DIRECTION('',(0.,0.,1.));
#405=DIRECTION('center_axis',(0.317717847335466,0.948185303347672,0.));
#406=DIRECTION('ref_axis',(-0.948185303347672,0.317717847335466,0.));
#407=DIRECTION('',(-0.948185303347672,0.317717847335466,0.));
#408=DIRECTION('',(-0.948185303347672,0.317717847335466,0.));
#409=DIRECTION('',(0.,0.,1.));
#410=DIRECTION('center_axis',(0.,0.,1.));
#411=DIRECTION('ref_axis',(0.0257413308117226,-0.999668637043316,0.));
#412=DIRECTION('center_axis',(0.,0.,1.));
#413=DIRECTION('ref_axis',(0.0257413308117226,-0.999668637043316,0.));
#414=DIRECTION('center_axis',(0.,0.,1.));
#415=DIRECTION('ref_axis',(0.0257413308117226,-0.999668637043316,0.));
#416=DIRECTION('',(0.,0.,1.));
#417=DIRECTION('center_axis',(5.96143026159512E-5,-0.999999998223068,0.));
#418=DIRECTION('ref_axis',(0.999999998223067,5.96143026159512E-5,0.));
#419=DIRECTION('',(0.999999998223067,5.96143026159511E-5,0.));
#420=DIRECTION('',(0.999999998223067,5.96143026159511E-5,0.));
#421=DIRECTION('',(0.,0.,1.));
#422=DIRECTION('center_axis',(0.,0.,1.));
#423=DIRECTION('ref_axis',(-1.,0.,0.));
#424=DIRECTION('center_axis',(0.,0.,1.));
#425=DIRECTION('ref_axis',(-1.,0.,0.));
#426=DIRECTION('center_axis',(0.,0.,1.));
#427=DIRECTION('ref_axis',(-1.,0.,0.));
#428=DIRECTION('',(0.,0.,1.));
#429=DIRECTION('center_axis',(8.20731683157448E-8,-0.999999999999997,0.));
#430=DIRECTION('ref_axis',(0.999999999999997,8.20731683157448E-8,0.));
#431=DIRECTION('',(0.999999999999997,8.20731683157448E-8,0.));
#432=DIRECTION('',(0.999999999999997,8.20731683157448E-8,0.));
#433=DIRECTION('center_axis',(0.,0.,1.));
#434=DIRECTION('ref_axis',(1.,0.,0.));
#435=DIRECTION('center_axis',(0.,0.,1.));
#436=DIRECTION('ref_axis',(1.,0.,0.));
#437=CARTESIAN_POINT('',(0.,0.,0.));
#438=CARTESIAN_POINT('Origin',(1.65329617778982,4.69072132968084,0.));
#439=CARTESIAN_POINT('',(1.65329617778978,5.19072099318089,0.));
#440=CARTESIAN_POINT('',(1.15519916148293,4.64714351598684,0.));
#441=CARTESIAN_POINT('Origin',(1.65329617778982,4.69072132968084,0.));
#442=CARTESIAN_POINT('',(1.65329617778978,5.19072099318089,250.));
#443=CARTESIAN_POINT('',(1.65329617778978,5.19072099318089,0.));
#444=CARTESIAN_POINT('',(1.15519916148293,4.64714351598684,250.));
#445=CARTESIAN_POINT('Origin',(1.65329617778982,4.69072132968084,250.));
#446=CARTESIAN_POINT('',(1.15519916148293,4.64714351598684,0.));
#447=CARTESIAN_POINT('Origin',(1.50382118409324,0.662364257713528,0.));
#448=CARTESIAN_POINT('',(1.50382118409324,0.662364257713528,0.));
#449=CARTESIAN_POINT('',(1.50382118409324,0.662364257713528,0.));
#450=CARTESIAN_POINT('',(1.50382118409324,0.662364257713528,250.));
#451=CARTESIAN_POINT('',(1.50382118409324,0.662364257713528,250.));
#452=CARTESIAN_POINT('',(1.50382118409324,0.662364257713528,0.));
#453=CARTESIAN_POINT('Origin',(1.00572417778976,0.618786329680909,0.));
#454=CARTESIAN_POINT('',(0.507627161981879,0.575208510283969,0.));
#455=CARTESIAN_POINT('Origin',(1.00572417778976,0.618786329680909,0.));
#456=CARTESIAN_POINT('',(0.507627161981879,0.575208510283969,250.));
#457=CARTESIAN_POINT('Origin',(1.00572417778976,0.618786329680909,250.));
#458=CARTESIAN_POINT('',(0.507627161981879,0.575208510283969,0.));
#459=CARTESIAN_POINT('Origin',(0.159004141787292,4.55998774088457,0.));
#460=CARTESIAN_POINT('',(0.159004141787292,4.55998774088457,0.));
#461=CARTESIAN_POINT('',(0.159004141787292,4.55998774088457,0.));
#462=CARTESIAN_POINT('',(0.159004141787292,4.55998774088457,250.));
#463=CARTESIAN_POINT('',(0.159004141787292,4.55998774088457,250.));
#464=CARTESIAN_POINT('',(0.159004141787292,4.55998774088457,0.));
#465=CARTESIAN_POINT('Origin',(1.65329617778978,4.69072132968087,0.));
#466=CARTESIAN_POINT('',(1.65329617778978,6.19072131638088,0.));
#467=CARTESIAN_POINT('Origin',(1.65329617778978,4.69072132968087,0.));
#468=CARTESIAN_POINT('',(1.65329617778978,6.19072131638088,250.));
#469=CARTESIAN_POINT('Origin',(1.65329617778978,4.69072132968087,250.));
#470=CARTESIAN_POINT('',(1.65329617778978,6.19072131638088,0.));
#471=CARTESIAN_POINT('Origin',(13.9610185818263,6.19082055242959,0.));
#472=CARTESIAN_POINT('',(13.9610185818263,6.19082055242959,0.));
#473=CARTESIAN_POINT('',(13.9610185818263,6.19082055242959,0.));
#474=CARTESIAN_POINT('',(13.9610185818263,6.19082055242959,250.));
#475=CARTESIAN_POINT('',(13.9610185818263,6.19082055242959,250.));
#476=CARTESIAN_POINT('',(13.9610185818263,6.19082055242959,0.));
#477=CARTESIAN_POINT('Origin',(13.9532961777898,6.49072132968088,0.));
#478=CARTESIAN_POINT('',(14.0486116575902,6.7751770749743,0.));
#479=CARTESIAN_POINT('Origin',(13.9532961777898,6.49072132968088,0.));
#480=CARTESIAN_POINT('',(14.0486116575902,6.7751770749743,250.));
#481=CARTESIAN_POINT('Origin',(13.9532961777898,6.49072132968088,250.));
#482=CARTESIAN_POINT('',(14.0486116575902,6.7751770749743,0.));
#483=CARTESIAN_POINT('Origin',(2.56088563672974,10.6244832910074,0.));
#484=CARTESIAN_POINT('',(2.56088563672974,10.6244832910074,0.));
#485=CARTESIAN_POINT('',(2.56088563672974,10.6244832910074,0.));
#486=CARTESIAN_POINT('',(2.56088563672974,10.6244832910074,250.));
#487=CARTESIAN_POINT('',(2.56088563672974,10.6244832910074,250.));
#488=CARTESIAN_POINT('',(2.56088563672974,10.6244832910074,0.));
#489=CARTESIAN_POINT('Origin',(2.71974449296648,11.0985756317968,0.));
#490=CARTESIAN_POINT('',(2.87860330886185,11.5726679861039,0.));
#491=CARTESIAN_POINT('Origin',(2.71974449296648,11.0985756317968,0.));
#492=CARTESIAN_POINT('',(2.87860330886185,11.5726679861039,250.));
#493=CARTESIAN_POINT('Origin',(2.71974449296648,11.0985756317968,250.));
#494=CARTESIAN_POINT('',(2.87860330886185,11.5726679861039,0.));
#495=CARTESIAN_POINT('Origin',(14.3663296283825,7.72336166999579,0.));
#496=CARTESIAN_POINT('',(14.3663296283825,7.72336166999579,0.));
#497=CARTESIAN_POINT('',(14.3663296283825,7.72336166999579,0.));
#498=CARTESIAN_POINT('',(14.3663296283825,7.72336166999579,250.));
#499=CARTESIAN_POINT('',(14.3663296283825,7.72336166999579,250.));
#500=CARTESIAN_POINT('',(14.3663296283825,7.72336166999579,0.));
#501=CARTESIAN_POINT('Origin',(13.9532961777898,6.49072132968089,0.));
#502=CARTESIAN_POINT('',(13.9867598963592,5.19115254757673,0.));
#503=CARTESIAN_POINT('Origin',(13.9532961777898,6.49072132968089,0.));
#504=CARTESIAN_POINT('',(13.9867598963592,5.19115254757673,250.));
#505=CARTESIAN_POINT('Origin',(13.9532961777898,6.49072132968089,250.));
#506=CARTESIAN_POINT('',(13.9867598963592,5.19115254757673,0.));
#507=CARTESIAN_POINT('Origin',(6.75329617778976,5.19072132968088,0.));
#508=CARTESIAN_POINT('',(6.75329617778976,5.19072132968088,0.));
#509=CARTESIAN_POINT('',(6.75329617778976,5.19072132968088,0.));
#510=CARTESIAN_POINT('',(6.75329617778976,5.19072132968088,250.));
#511=CARTESIAN_POINT('',(6.75329617778976,5.19072132968088,250.));
#512=CARTESIAN_POINT('',(6.75329617778976,5.19072132968088,0.));
#513=CARTESIAN_POINT('Origin',(6.25329617778976,5.19072132968088,0.));
#514=CARTESIAN_POINT('',(5.75329617778975,5.19072132968088,0.));
#515=CARTESIAN_POINT('Origin',(6.25329617778976,5.19072132968088,0.));
#516=CARTESIAN_POINT('',(5.75329617778975,5.19072132968088,250.));
#517=CARTESIAN_POINT('Origin',(6.25329617778976,5.19072132968088,250.));
#518=CARTESIAN_POINT('',(5.75329617778975,5.19072132968088,0.));
#519=CARTESIAN_POINT('Origin',(1.65329617778978,5.19072099318089,0.));
#520=CARTESIAN_POINT('',(1.65329617778978,5.19072099318089,0.));
#521=CARTESIAN_POINT('',(1.65329617778978,5.19072099318089,250.));
#522=CARTESIAN_POINT('Origin',(24.2954645601055,9.02838234405535,250.));
#523=CARTESIAN_POINT('Origin',(24.2954645601055,9.02838234405535,0.));
#524=UNCERTAINTY_MEASURE_WITH_UNIT(LENGTH_MEASURE(0.01),#528,
'DISTANCE_ACCURACY_VALUE',
'Maximum model space distance between geometric entities at asserted c
onnectivities');
#525=UNCERTAINTY_MEASURE_WITH_UNIT(LENGTH_MEASURE(0.01),#528,
'DISTANCE_ACCURACY_VALUE',
'Maximum model space distance between geometric entities at asserted c
onnectivities');
#526=(
GEOMETRIC_REPRESENTATION_CONTEXT(3)
GLOBAL_UNCERTAINTY_ASSIGNED_CONTEXT((#524))
GLOBAL_UNIT_ASSIGNED_CONTEXT((#528,#530,#531))
REPRESENTATION_CONTEXT('','3D')
);
#527=(
GEOMETRIC_REPRESENTATION_CONTEXT(3)
GLOBAL_UNCERTAINTY_ASSIGNED_CONTEXT((#525))
GLOBAL_UNIT_ASSIGNED_CONTEXT((#528,#530,#531))
REPRESENTATION_CONTEXT('','3D')
);
#528=(
LENGTH_UNIT()
NAMED_UNIT(*)
SI_UNIT(.MILLI.,.METRE.)
);
#529=(
LENGTH_UNIT()
NAMED_UNIT(*)
SI_UNIT($,.METRE.)
);
#530=(
NAMED_UNIT(*)
PLANE_ANGLE_UNIT()
SI_UNIT($,.RADIAN.)
);
#531=(
NAMED_UNIT(*)
SI_UNIT($,.STERADIAN.)
SOLID_ANGLE_UNIT()
);
#532=SHAPE_DEFINITION_REPRESENTATION(#533,#534);
#533=PRODUCT_DEFINITION_SHAPE('',$,#536);
#534=SHAPE_REPRESENTATION('',(#316),#526);
#535=PRODUCT_DEFINITION_CONTEXT('part definition',#540,'design');
#536=PRODUCT_DEFINITION('61-120-0','61-120-0 v2',#537,#535);
#537=PRODUCT_DEFINITION_FORMATION('',$,#542);
#538=PRODUCT_RELATED_PRODUCT_CATEGORY('61-120-0 v2','61-120-0 v2',(#542));
#539=APPLICATION_PROTOCOL_DEFINITION('international standard',
'automotive_design',2009,#540);
#540=APPLICATION_CONTEXT(
'Core Data for Automotive Mechanical Design Process');
#541=PRODUCT_CONTEXT('part definition',#540,'mechanical');
#542=PRODUCT('61-120-0','61-120-0 v2',$,(#541));
#543=PRESENTATION_STYLE_ASSIGNMENT((#544));
#544=SURFACE_STYLE_USAGE(.BOTH.,#545);
#545=SURFACE_SIDE_STYLE('',(#546));
#546=SURFACE_STYLE_FILL_AREA(#547);
#547=FILL_AREA_STYLE('Steel - Satin',(#548));
#548=FILL_AREA_STYLE_COLOUR('Steel - Satin',#549);
#549=COLOUR_RGB('Steel - Satin',0.627450980392157,0.627450980392157,0.627450980392157);
ENDSEC;
END-ISO-10303-21;
